Madonna 4 Minutes Tab

2113 Views
Tuning: D  G  C  F  A# D

x = mute
^ = hammer on or pull off

Intro/Verse:
---------------------------------------------|
---------------------------------------------|
-----0-2---5-4^5^4-2-----0^2^0-----9-7^9^7-5-|
---2-------------------2-------2-------------|
-0-------0-----------0-----------0-----------|
---------------------------------------------|

Pre-Chorus/Turnaround:
----------------------------------------------|
----------------------------------------------|
-----0-2---5-4^5^4-2---2-0^2^0^2---9--7^9^7-5-|
---2-------------------2-0^2^0^2---10-9-----7-|
-0-------0-----------0-----------0------------|
----------------------------------------------|

Chorus:
-1----0--3----3----0-|
-0----0--2----2----0-|
-2----0--0----0----2-|
-3----2--0----0----2-|
-3----3--x----x----0-|
---------3----3------|
1
Vote

Comments are closed.