House Of The Rising Sun Tab

5551 Views
INTRO         

E|--------------0------------------------------------0-----------
B|----------1--------1-------------------------1--------1--------
G|-------2----------------2--------------0-----------------0-----
D|----2-------------------------------2--------------------------
A|-0------------------------------3------------------------------

E|-----------2---2--------------------------------1---1----------
B|--------3----------3-----------------------1------------1------
G|----2------------------2---------------2--------------------2--
D|-0---------------------------------3---------------------------

E|--------------0------------------------------------------------
B|----------1--------1---------------------------------0---------
G|-------2----------------2----------------------1--------1------
D|----2--------------------------------------2----------------2--   
A|-0------------------------------------2------------------------
E|-----------------------------------0---------------------------

E|--------------0------------------------------------------------
B|----------1--------1---------------------------------0---------
G|-------2----------------2----------------------1--------1------
D|----2--------------------------------------2----------------2--   
A|-0------------------------------------2------------------------
E|-----------------------------------0---------------------------
1
Vote

Comments are closed.