Led Zeppelin Tab

8365 Views
G|--------------------------------------------|
D|--------------------------------------------|
A|-5------5-5-5------5-5------5-5-5------5-5--|
E|----5h7--------5h7------5h7--------5h7------|

G|-----------------------------------------|
D|------------9-7--------------------7-9---|
A|------5-5-5-----9-5------5-5-5-7/9-------|
E|--5h7----------------5h7-----------------|

G|--------------------------------------------|
D|--------------------------------------------|
A|-5------5-5-5------5-5------5-5-5------5-5--|
E|----5h7--------5h7------5h7--------5h7------|

G|----------------------------------------------|
D|-------------12-12--10-------------------7-9--|
A|------5-5-5-------------5------5-5-5-7/9------|
E|--5h7----------------------5h7----------------|

G|------------------------------------|
D|------------------------------------|
A|-10--10-10-10--10-10-10--10-10--10--|
E|------------------------------------|  X3

G|------7-9-7-9-7---7-9-7---7--|
D|--7-9-----------9-------9----|
A|-----------------------------|
E|-----------------------------|

G|-----------------------------------------------|
D|-----------------------------------------------|
A|----5------5-5-5------5-5------5-5-5------5-5--|
E|-5h7---5h7--------5h7------5h7--------5h7------|

G|-----------------------------------------|
D|------------9-7--------------------7-9---|
A|------5-5-5-----9-5------5-5-5-7/9-------|
E|--5h7----------------5h7-----------------|

G|--------------------------------------------|
D|--------------------------------------------|
A|-5------5-5-5------5-5------5-5-5------5-5--|
E|----5h7--------5h7------5h7--------5h7------|

G|----------------------------------------------|
D|-------------12-12--10-------------------7-9--|
A|------5-5-5-------------5------5-5-5-7/9------|
E|--5h7----------------------5h7----------------|

G|------------------------------------|
D|------------------------------------|
A|-10--10-10-10--10-10-10--10-10--10--|
E|------------------------------------|  X3

G|------7-9-7-9-7---7-9-7---7--|
D|--7-9-----------9-------9----|
A|-----------------------------|
E|-----------------------------|

G|-------------------------------------------------------|
D|-------------------------------------------------------|
A|----5-5-----------5-5-----------5-5-----------5-5------|
E|-5h7-----------5h7-----------5h7-----------5h7---------|

G|--------------------------------------------|
D|--------------------------------------------|
A|-5------5-5-5------5-5------5-5-5------5-5--|
E|----5h7--------5h7------5h7--------5h7------|

G|-----------------------------------------|
D|------------9-7--------------------7-9---|
A|------5-5-5-----9-5------5-5-5-7/9-------|
E|--5h7----------------5h7-----------------|

G|--------------------------------------------|
D|--------------------------------------------|
A|-5------5-5-5------5-5------5-5-5------5-5--|
E|----5h7--------5h7------5h7--------5h7------|

G|----------------------------------------------|
D|-------------12-12--10-------------------7-9--|
A|------5-5-5-------------5------5-5-5-7/9------|
E|--5h7----------------------5h7----------------|

G|------------------------------------|
D|------------------------------------|
A|-10--10-10-10--10-10-10--10-10--10--|
E|------------------------------------|  X2

G|-------------------------------------------|
D|--------------------------------------7-9--|
A|-5------5-5-5------5-5------5-5-5-7/9------|
E|----5h7--------5h7------5h7----------------|

G|------------------------------------|
D|------------------------------------|
A|-10--10-10-10--10-10-10--10-10--10--|
E|------------------------------------|  X2

G|-12---12--12---12-12--12-12-------7-9-7-9-7---7-9-7---7--|
D|------------------------------7-9-----------9-------9----|
A|---------------------------------------------------------|
E|---------------------------------------------------------|

G|--------------------------------------------|
D|--------------------------------------------|
A|-5------5-5-5------5-5------5-5-5------5-5--|
E|----5h7--------5h7------5h7--------5h7------|

G|-----------------------------------------|
D|------------9-7--------------------7-9---|
A|------5-5-5-----9-5------5-5-5-7/9-------|
E|--5h7----------------5h7-----------------|

G|-----------------------------|
D|-----------------------------|
A|-10--10--10---10-10--10--10--|
E|-----------------------------|  X2

G|--------------------------------------|
D|--------------------------------------|
A|-5------5-5-5------5-5----------5-7-9-|
E|----5h7--------5h7-----3--4-5-7-------|

G|------------------------|------------------------------|
D|------------------------|------------------------------|
A|-10--10--10---10--10-10-|-10--10--10-----10-10-10--10--|
E|------------------------|------------------------------|

G|------------12-12-12-12-12------7-9-7-9-7---7-9-7---7--|
D|----------------------------7-9-----------9-------9----|
A|-10--10--10--------------------------------------------|
E|-------------------------------------------------------|

G|-------------------------------------------------|
D|-------------------------------------------------|
A|----5-5------5-5-5------5-5------5-5-5------5-5--|
E|-5h7-----5h7--------5h7------5h7--------5h7------|

G|---------------------------------------------|    
D|-------------------12--12-------12--12-------|
A|----5-5-5------------------------------------|
E|---------------10--------10--10---------10\--|
1
Vote

Leave a Reply

Your email address will not be published. Required fields are marked *


*

You may use these HTML tags and attributes: <a href="" title=""> <abbr title=""> <acronym title=""> <b> <blockquote cite=""> <cite> <code> <del datetime=""> <em> <i> <q cite=""> <strike> <strong>