Zinda Hoon Yaar Guitar Tabs – Lootera

Zinda Hoon Yaar Guitar Tabs from Bollywood Hindi movie Lootera, song is sung & composed by Amit Trivedi.

Opening Melody-
E|-9-------9--------9--------9--------9-10-9----
B|--10--12---10--12---10--12---10--12--------10-
G|----------------------------------------------11
E|-9-------9--------9--------9--------9-10-9----
B|--10--12---10--12---10--12---10--12--------10-
G|----------------------------------------------11
B|-5h7--5h7---5---5h7--5h7---5
G|-------------6------------
Vocal-
G|----2--4--4--2-----
D|-4--------------4--4--2--0--2
 --Mujhe Chodd Do.. Mere Haal Pe.
B|----------2------------
G|----2--4-----2-----
D|-4--------------4--4--2--0--2
 --Mujhe Chodd Do.. Mere Haal Pe.
D|---------------0-------
A|--4---2-----0-----2---4---4-
 --Zinda Hoon Yaar.. Kaafi Hain.
D|---------------0---4--4--2--2-
A|--4---2-----0------------
 --Zinda Hoon Yaaar.. Kaafi Hain.
With The Opening Melody In Background-
D|--0---------2-
A|----4---4--
 --Kaafi Hain eee.
D|--0---
A|----4----0--
 --Kaafi Hain....
Music-
E|--------8-10---------------------8----10--12
B|-10---8------10--8-7-----10---8----10----
G|----------------------9-----------------
E|-----12--17
B|-10--------
Vocal-
G|-4---4--------4-4-----------
D|--------7---4-----7-4--7-4---
A|----------------------------7--4
 --Hawaaon Se, Jo Maanga Hissa Mera.
G|-4--4-----------4--4--6--4
D|-------7---4----------------7--7
 --Toh Badle Mein, Hawa Ne Saans Di.
G|---4-------4--4-----------
D|-7---7--4-------7-4-7-4---
A|-------------------------7-4
 --Akelpan Se Cheddi Jab Guftgu.
G|--------------4----
D|----------4-7---7-7
A|-5--5--5----------
 --Mere Dil Ne Awaaz Di.
G|---4------4--4-----------
D|-7---7--4------7--4-7-4---
A|-------------------------7--4
 --Mere Haato Hua Jo Kissa Shuru.
G|-4--4------4--4--6--4
D|------7--4-------------7--7
 --Use Pura Toh Karna Hai Mujhe.
G|-------4---
D|-7--7-----7--4
 --Kabra Par Mere.
B|------------------5----
G|-4--4--4--4--4--6----7--6-
D|---------------------------4
 --Sar Utha Ke Khadi Ho Zindagi.
G|-----------4--4---
D|-----4--7-------7--7
A|-5-----------
 --Aise Marna Hai Mujhe.
G|----2--4--4--2
D|-4-------------4-4-2-0-2
 --Kuch Maangna.. Baki Nahi.
B|-----------2-------------
G|----2---4----2------------
D|-4--------------4-4-2-0-2
 --Kuch Maangnaaaa Baki Nahi.
D|----------0-------
A|-4--2--0-----2--4--4
 --Jitna Mila Kaafi Hain.
D|--------------0----4--4--2--2-
A|-4---2----0------------
 --Zinda Hoon Yaaar.. Kaafi Hain.
G|---2--4--4---2-----
D|-4--------------4--4--2--0--2
 --Mujhe Chodd Do.. Mere Haal Pe.
B|------------2------------
G|----2---4-----2-----
D|-4--------------4--4--2--0--2
 --Mujhe Chodd Do.. Mere Haal Pe.
D|---------------0-------
A|-4---2-----0------2---4---4-
 --Zinda Hoon Yaar.. Kaafi Hain.
B|------------------------2---
G|---------------------2----4--4--2
D|-------------0----4---------
A|--4--2---0--------------
 --Zinda Hoon Yaaaaaaar.. Kaaafi Hain.
Chorus-
E|----------------5---5--7
B|-5--5--7--7--5----7------5
 --Mujhe Chodd Do. oooooooooo
E|----------------5---5--7
B|-5--5--7--7--5----7------5
 --Mujhe Chodd Do. oooooooooo
E|-7--7-7--7--7--7--7-7--7--7--7--7-5--5--5--7--7-5--5--5
 ---Mere Haal Pe, Mere Haal Pe, Mere Haal Pe, Mere Haal Pe.

Leave a Reply

Your email address will not be published. Required fields are marked *

This site uses Akismet to reduce spam. Learn how your comment data is processed.

error: Content is protected !!