Ek Ladki Bheegi Bhaagi Si Tabs

Ek ladki bheegi bhaagi si guitar tabs and leads sung by Kishore Kumar from old hindi movie Chalti Ka Naam Gaadi.

Ek ladki bhigi bhagi si
B|--6--8--9--8--9--6--8------6\4------4/6--6--6---
G|-----------------------8--------5---------------

Soti raaton mein jaagi si
B|--6--8--9--8--9--6--8------6\4------4/6--6--6---
G|-----------------------8--------5---------------

Mili ek ajnabi se, Koi aage na peechhe
E|-----6---6/8--8--9---8--8-----------6--6--8---6--6---
B|--9--------------------------8--9--------------------

Tum hi kaho ye koi baat hai, hmm
B|--9--8--9--6--8------6/4------4/6--6--6---
G|-----------------8--------5---------------

Dil hi dil mein chali jaati hain
E|-------------------------------6--9--8--8---
B|--6--8--9----8--6--8----8--9----------------

Bighdi bighdi chali aati hain
E|-------------------------------6--9--8--8---
B|--6--8--9----8--6--8----8--9----------------

Doondh laut ti huwi balka ti huwi
E|--9--11--13--11-9--11/13----11-9--8--6-------8---
B|-----------------------------------------9-------

Saawan ke suni raaton mein
E|--8--8--9--8--6-------------
B|------------------9--8--6---

Mili ek ajnabi se, Koi aage na peechhe
E|-----6---6/8--8--9---8--8-----------6--6--8---6--6---
B|--9--------------------------8--9--------------------

Tum hi kaho ye koyi baat hai, hmm
B|--9--8--9--6--8------6/4------4/6--6--6---
G|-----------------8--------5---------------

Leave a Reply

Your email address will not be published. Required fields are marked *

This site uses Akismet to reduce spam. Learn how your comment data is processed.

error: Content is protected !!