Ek Ladki Bheegi Bhaagi Si Tabs – Kishore Kumar

Ek ladki bheegi bhaagi si guitar tabs and leads sung by Kishore Kumar from old hindi movie Chalti Ka Naam Gaadi.

Ek ladki bhigi bhagi si
B|--6--8--9--8--9--6--8------6\4------4/6--6--6---
G|-----------------------8--------5---------------

Soti raaton mein jaagi si
B|--6--8--9--8--9--6--8------6\4------4/6--6--6---
G|-----------------------8--------5---------------

Mili ek ajnabi se, Koi aage na peechhe
E|-----6---6/8--8--9---8--8-----------6--6--8---6--6---
B|--9--------------------------8--9--------------------

Tum hi kaho ye koi baat hai, hmm
B|--9--8--9--6--8------6/4------4/6--6--6---
G|-----------------8--------5---------------

Buy Now Full Tab
error: Content is protected !!